Küß die Hand gnä'd Frau/Habe die Ehre Herr Hofrat ;-D :-)

    Die Erde gibt euch


    ihre Frucht,


    und es wird euch


    an nichts mangeln,


    wenn ihr nur wißt,


    wie ihr eure Hände füllt.


    ------------------------------;-) ;-) 8-)


    (Khalil Gibran )


    ---------------;-D ;-D;-D


    --------------------------------:-( :-( :-( :-o :-o :-o

    Aus der "Hörzu" ;-D ;-D :-) :-o :-o :-o :-o :-o :-o:-o 8-)

    Die Leere im


    Magen kann


    Raum schaffen


    für neue


    Gedanken.


    ---------------- :-D :-) ;-) ;-) ;-) ;-)


    Grüße an Lotta---;-)


    ---------Aprilhase----:-)


    ---------Heraklit----------:-)


    ---------grün----------;-D


    ---------------------;-D ;-D ;-D ;-)

    Aus der "Hörzu" ;-D ;-D :-) :-o :-o :-o :-o :-o :-o:-o 8-)

    Die Leere im


    Magen kann


    Raum schaffen


    für neue


    Gedanken.


    ---------------- -------------------:-D :-) ;-) ;-) ;-) ;-)


    Grüße an Lotta------------------------------;-)


    ---------Aprilhase------------------------------:-)


    ---------Heraklit---------------------------------:-)


    ---------grün--------------------------------------;-D


    ----------------------------------------------;-D ;-D ;-D ;-)

    Was ist Liebe? (Emil Rittershaus)

    Ich sprach zur Sonne:


    "Sprich, was ist die Liebe?"


    Sie gab nicht Antwort, gab nur goldnes Licht.


    Ich sprach zur Blume:


    "Sprich, was ist die Liebe?"


    Sie gab mir Düfte, doch die Antwort nicht.


    Ich sprach zum Ew'gen:


    "Sprich, was ist die Liebe?


    Ist's heil'ger Ernst? Ist's süße Tändelei?"


    Da gab mir Gott ein Weib, ein treues, liebes,


    und nimmer fragt' ich, was die Liebe sei!


    8-) ;-D

    FRÜHLINGSGRUSS :-)

    Es steht ein Berg in Feuer,


    In feurigem Morgenbrand,


    Und auf des Berges Spitze


    Ein Tannbaum überm Land.


    Und auf dem höchsten Wipfel


    Steh ich und schau vom Baum,


    O Welt, du schöne Welt, du,


    Man sieht dich vor Blüten kaum!


    Joseph von Eichendorff

    grün -----------:-) :-)----------------------;-) ;-);-)

    Liebe besitzt nicht,


    noch läßt sie sich besitzen.


    Liebe gibt nichts


    als sich selbst


    und nimmt nichts


    als sich selbst.


    -----------------:-) :-D :-D


    Den die Liebe


    genügt der Liebe.


    --------------------:-o :-o :-o :-o


    Und glaube nicht,


    du kannst den Lauf der Liebe lenken,


    den die Liebe,


    wenn sie dich für würdig hält


    lenkt deinen Lauf.


    ---------------------8-) 8-) :-o


    Moin -----Lotta------- :-)


    -----------------------------;-D


    Moin ------Aprilhase------


    -------------------------------:-o


    Moin -------grün------8-)


    ------------------------------:-o


    Moin -------Heraklit-----:-)


    -------------------------------:-o




    Peter Lauster :-)

    Seit hundert und mehr Jahren


    die gleichen Fragen.


    Warum lebe ich?


    Was ist Liebe?


    Wer bin ich?


    Wem gehört alles?


    Was ist der Sinn?


    Du lebst und atmest,


    weil das dein Sinn ist.


    Du liebst und leidest,


    weil das das Leben ist.


    Das alles gehört zu allem.


    In allem bist du allein,


    du gehörst niemand.


    suche keinen Platz außer dir,


    wo du bist,


    ist die Antwort.


    ------------------------------:-D


    Moin an alle - auf die Liebe!!!!!!!!


    :-) ;-) ;-)---------------;-D


    -------------------:-D-----------

    Ja genau Heraklit :-) :-) :-) :-) :-):-) :-) :-) :-) :-) :-)

    Khalil Gibran.


    ---------------------------;-D :-D


    Füllt einander die Becher,


    aber trinkt nicht


    aus einem Becher.


    ------------------------------:-o :-o


    Gebt einander von eurem Brot,


    aber eßt nicht vom


    gleichen Laib.


    -------------------------------:-o :-o :-o


    Und steht zusammen,


    doch nicht zu nah:


    Denn die Säulen des Tempels


    stehen für sich.


    ------------------------------:-D :-D :-)


    Denn die Eichen


    und die Zypressen


    wachsen nicht im


    Schatten der anderen.


    -------------------------------;-) ;-) ;-) ;-)




    Moingruß an Lotta






    Moingruß an grün






    Moingruß an Heraklit






    Moingruß an Aprilhase


    ----------------------------;-D ;-D :-o :-o 8-) 8-)

    Harry Graf Kessler (1868-1937)

    Gedanken,


    die was wert sind,


    wollen


    nicht begriffen,


    sondern erlebt sein.


    -------------------------------;-)


    -------------------:-o :-o :-o


    -------------------8-) 8-) 8-)


    -------------------------------;-)

    Harry Graf Kessler (1868-1937)

    Gedanken,


    die was wert sind,


    wollen


    nicht begriffen,


    sondern erlebt sein.


    -------------------------------;-)


    -------------------:-o :-o :-o


    -------------------8-) 8-) 8-)


    -------------------------------;-)

    Grashüpferphilosophie

    Ich hüpfe


    durchs Leben


    also bin ich


    Bäume aus Gras


    Und spring


    ich daneben


    der Kröte zum Fraß


    das wars dann eben


    Ach


    so schön wars


    als ich noch auf dir saß


    Nächstes Jahr


    komm ich wieder:


    gesprungen in neues Leben


    So ist es eben


    mein Dasein im Gras


    Manfred Poisel


    (*1944)


    8-)´

    So spät noch im Klee.------- ;-D ;-D :-D :-D :-D

    Michel de Montaigne(1533-1592)-


    ----------------------------------:-o :-o


    weil jeder das Barbarei nennt,


    was bei ihm nicht gebräuchlich ist,


    und weil wir am Ende nicht wissen,


    ob es vielleicht die Katze ist,


    die mit uns spielt,


    um uns eine Freude zu machen.


    -----------------------------------:-o :-o


    -----------------------------------8-)8-)




    Ein Morgengruß an


    -------------------Lotta-----------;-D :-)


    -------------------Aprilhase----:-) :-)


    -------------------grün------:-) :-) :-D


    -------------------Heraklit-----;-) ;-) ;-) ;-)


    ------------------------------------------------------- :-)

    Noch einen Morgengruß :-D :-D :-D :-D

    Niemand weiss,


    wie weit seine Kräfte gehen,


    bis er sie versucht hat!


    Johann Wolfgang von Goethe


    ------------;-D-------------------


    Moin Lotta, Nethe und grün!!!!!


    ;-) :-) ;-) ;-D ;-D--------8-)


    ;-D

    Erich Limpach (1899-1965) ;-D :-) :-) :-) :-) :-) :-) :-)

    Der Anfang


    aller Schlechtigkeit,


    ist Mangel an


    Gerechtigkeit.


    ------------------- :-) :-)


    Gruß an unsere grün---------;-D ;-) ;-)


    --------------Lotta---------:-o :-o


    --------------Heraklit-------8-) 8-)


    --------------Aprilhase------:-D :-D


    -----------------------------------------;-D ;-D


    und Aprilhase

    Moin an alle! Wieder Sonne ;-D ;-D Wohlverdient!

    Albert Einstein


    Am Anfang gehören


    alle Gedanken der Liebe.


    Später gehört dann alle Liebe


    den Gedanken.


    -------------------;-D-----------


    Moin Nethe ;-) ;-) :-D :-)


    Moin Lotta und grün ------;-) :-)


    ;-D