Ja genau Heraklit :-) :-) :-) :-) :-):-) :-) :-) :-) :-) :-)

    Khalil Gibran.


    ---------------------------;-D :-D


    Füllt einander die Becher,


    aber trinkt nicht


    aus einem Becher.


    ------------------------------:-o :-o


    Gebt einander von eurem Brot,


    aber eßt nicht vom


    gleichen Laib.


    -------------------------------:-o :-o :-o


    Und steht zusammen,


    doch nicht zu nah:


    Denn die Säulen des Tempels


    stehen für sich.


    ------------------------------:-D :-D :-)


    Denn die Eichen


    und die Zypressen


    wachsen nicht im


    Schatten der anderen.


    -------------------------------;-) ;-) ;-) ;-)




    Moingruß an Lotta






    Moingruß an grün






    Moingruß an Heraklit






    Moingruß an Aprilhase


    ----------------------------;-D ;-D :-o :-o 8-) 8-)

    Harry Graf Kessler (1868-1937)

    Gedanken,


    die was wert sind,


    wollen


    nicht begriffen,


    sondern erlebt sein.


    -------------------------------;-)


    -------------------:-o :-o :-o


    -------------------8-) 8-) 8-)


    -------------------------------;-)

    Harry Graf Kessler (1868-1937)

    Gedanken,


    die was wert sind,


    wollen


    nicht begriffen,


    sondern erlebt sein.


    -------------------------------;-)


    -------------------:-o :-o :-o


    -------------------8-) 8-) 8-)


    -------------------------------;-)

    Grashüpferphilosophie

    Ich hüpfe


    durchs Leben


    also bin ich


    Bäume aus Gras


    Und spring


    ich daneben


    der Kröte zum Fraß


    das wars dann eben


    Ach


    so schön wars


    als ich noch auf dir saß


    Nächstes Jahr


    komm ich wieder:


    gesprungen in neues Leben


    So ist es eben


    mein Dasein im Gras


    Manfred Poisel


    (*1944)


    8-)´

    So spät noch im Klee.------- ;-D ;-D :-D :-D :-D

    Michel de Montaigne(1533-1592)-


    ----------------------------------:-o :-o


    weil jeder das Barbarei nennt,


    was bei ihm nicht gebräuchlich ist,


    und weil wir am Ende nicht wissen,


    ob es vielleicht die Katze ist,


    die mit uns spielt,


    um uns eine Freude zu machen.


    -----------------------------------:-o :-o


    -----------------------------------8-)8-)




    Ein Morgengruß an


    -------------------Lotta-----------;-D :-)


    -------------------Aprilhase----:-) :-)


    -------------------grün------:-) :-) :-D


    -------------------Heraklit-----;-) ;-) ;-) ;-)


    ------------------------------------------------------- :-)

    Noch einen Morgengruß :-D :-D :-D :-D

    Niemand weiss,


    wie weit seine Kräfte gehen,


    bis er sie versucht hat!


    Johann Wolfgang von Goethe


    ------------;-D-------------------


    Moin Lotta, Nethe und grün!!!!!


    ;-) :-) ;-) ;-D ;-D--------8-)


    ;-D

    Erich Limpach (1899-1965) ;-D :-) :-) :-) :-) :-) :-) :-)

    Der Anfang


    aller Schlechtigkeit,


    ist Mangel an


    Gerechtigkeit.


    ------------------- :-) :-)


    Gruß an unsere grün---------;-D ;-) ;-)


    --------------Lotta---------:-o :-o


    --------------Heraklit-------8-) 8-)


    --------------Aprilhase------:-D :-D


    -----------------------------------------;-D ;-D


    und Aprilhase

    Moin an alle! Wieder Sonne ;-D ;-D Wohlverdient!

    Albert Einstein


    Am Anfang gehören


    alle Gedanken der Liebe.


    Später gehört dann alle Liebe


    den Gedanken.


    -------------------;-D-----------


    Moin Nethe ;-) ;-) :-D :-)


    Moin Lotta und grün ------;-) :-)


    ;-D

    Haha-Hähe-Hähe-Huhu-??????????????????????

    Ich bin es,


    der so oft bei Nacht


    unterm Bett liegt


    und so hämisch lacht,;-D ;-D :-D


    und der,


    der hinterm Spiegel steckt,;-) ;-)


    der grinst,


    wenn man das Kinn vorreckt,;-D :-D


    der von jeder Geschichte


    den Schluß verrät,:-o :-o :-o


    der beim dritten Mal


    wie ein Hahn aufkräht,;-D ;-D


    der auch gnäd'ge Frau


    ans Kreischen bringt,8-) 8-)


    wenn ein Wort fällt,


    das so glitschig klingt,:-( :-(


    Und der Spruch an der Toilettentür


    stammt auch von mir


    Ich beiß auf Glas


    und knirsche laut,:-( :-( :-( :-( :-(


    und so entsteht die Gänsehaut.:-) :-)




    Moin die ganze Truppe-------:-) :-)



    Wurm gefangen! ;-D

    Hans von Gumppenberg


    Mine Haha Succuba


    Zur Erziehung der jungen Mädchen ;-D


    Kind, wie bist Du ungeschickt!


    Muß man alles dir noch zeigen?


    Wenn dich nicht der Teufel spickt,


    Wirst du immer Trübsal geigen!


    Glaubst du, daß er dich betrügt,


    Weil die Welt so schwarz ihn malte?


    Jede die sich ihm gefügt,


    Rühmt wie vornehm er bezahlte!


    Hebe dein Pilasterbein,


    Tritt den Grabstein der Gesetzte -


    Doch in Höschen hüll´ es ein,


    Daß die Hölle ganz Dich schätze!


    Schöner lockt der Rosenstrauß


    In durchbrochenen Manschetten,


    Und das gleiche zeichnet aus


    Allerzarteste Kotletten!


    Glaube, so wie ich gesinnt,


    Sind die besten Erdengeister -


    Und nun gute Nacht mein Kind,


    Mache Freude deinem Meister!




    ;-D :-) :-) ;-) ------------;-D


    Nicht so gruselig Gedicht wie deins


    moin Nethe-----------------;-D